аккорды песен БИ-2 аккорды песен Мобильная версия

Автор: katerina
Опубликовано: 2302 дня назад (4 апреля 2013)
0
Голосов: 0
аккорды песен би-тема для гитаристов.
если какие аккорды не можешь наити...возможно,здесь тебе помогут))
Концерт Би-2
Комментарии (57)
lenur # 4 июля 2013 в 09:56 0
возможно кого-то из нас подводит слух, но я склоняюсь к D (мажору). я несколько раз в наушниках переслушивал песню - как по мне, так Dm не клеится. да, кстати - на странице данной группы "Би2 вконтакте" есть видеозапись (так и называется "Лунапарк") - там четко видно: Лева зажимает на грифе аккорд D, причем на протяжении всей песни - и в куплетах и в припеве
roman # 5 июля 2013 в 22:17 0
Вопрос к Катерине Чабан , напиши аппликатуру аккорда F9
lenur # 7 июля 2013 в 05:15 0
аккорд F9 - барэ на первом ладу
-------------|----------------|------1*--------|
------3*----|----------------|-----------------|
-------------|----------------|------1*--------|
-------------|------2*-------|-----------------|
-------------|----------------|------1*--------|
------4*----|----------------|-----------------|
)))))))))) интересно, а сами Би-2 знают аппликатуру этого аккорда?))
по-моему в песне "Шар земной" все аккорды чистые - без всяких 7, 9
F, E, Am, C
vladimir # 16 июля 2013 в 14:37 0
Муза Gm# Cm# B банзай в ступление C#Em
andrej # 23 июля 2013 в 14:36 0
А Деревянные солдаты? Подобрал что Еm, потом С или С 9, а дальше туплю))) Подскажите...
lestat # 27 июля 2013 в 22:57 0
ребят знаете же песню "А мы не ангелы, парень"..?
подскажите плз каким перебором играть??????
ksenija # 31 июля 2013 в 18:51 0
люди,мож я немног не в тему,но очень нужна партия на фортепиано к песне Белые одежды...помогите,плиз!
roman # 3 августа 2013 в 07:56 0
песня "А мы не ангелы":
куплет: Em , потом аккорд такой же как D" только без зажатой 1 струны (не знаю как называется), C , D
припев: Em, D" , Am , Asus2 , C ,D
maksim # 4 августа 2013 в 09:42 0
Вечная призрачная встречная

e--------------------------------------------
h--------------------------------------------
g---------5-5------4-4------2-2-----------
d----2-2------2-2------2-2---------2----2
a----------------------------------------3--

Это рифффф ))))) встлупление,куплет, вставочка перед проигрышем и припевом =)

Аккорды собственно следующие :

Куплет - Am F Dm E
Припев ( и проигрышь) - Am C F Dm/E
maksim # 5 августа 2013 в 21:02 0
Вступление: Hm | F# | G | F#

Hm
Волки уходят в небеса
F#
Горят холодные глаза
G
Приказа верить в чудеса
F#
Не поступало

Далее проигрыш в куплете:

Hm F#
D|----------------------------------------|
A|-9-9---5---9-9---5---9-9---4---9-9---4--|

G F#
D|-----------------------------4----------|
A|-5-5---2---5-5---2---4-4---1---4-4---1--|

И каждый день другая цель
То стены гор, то горы стен
И ждет отчаяных гостей
Чужая стая

Hm
Спиной
C#
К ветру и все же
Em
Вырваться может
F#
Чья-то душа

Спасет,
Но не поможет
Чувствую кожей
Пропящая

Не помнят слов, не видят снов
Переросли своих отцов
И, кажется, рука бойцов
Колоть устала

Далее проигрыш в куплете:

Hm F# G F#
e|---7--------9--------10-----12-------|
H|-7--------7--------8-----------11----|
G|----------------------------------11-|

Hm F# G F#
e|---7--------9--------0---------------2-|
H|-7--------7------------0-----------5---|
G|-------------------------0-------3-----|
D|-------------------------------4-------|

Позор и слава в их крови
Хватает смерти и любви
Но сколько волка ни корми
Ему все мало.
filipp # 8 августа 2013 в 04:55 0
Задеть за живое есть у кого?
denis # 12 августа 2013 в 14:57 0
Реки любви
C Em
e|------12--12--12----12-13-15-13--12--12-------------|
H|---------------------------------------------------15--15--|
G|--12--------------------------------------------------------|

Am F
e|------12--12--12----12-13-15-13--12-----------------|
H|--------------------------------------------13-------------|
G|--14-------------------------------------------------------|

С Em
Кружится голова в уличных лабиринтах
Am F
Молот и серп Луны – свидетель и друг
Лоцман не Бог и привык доверяться инстинктам
Держится крепко за спасательный круг

ПРИПЕВ:
C Em
Реки любви
Am F
Реки любви
Реки любви
Реки любви

Я верю отчаянно в самые тёплые страны
Где ветер от нежности шепчет признания в любви
И мягкой травой зарастают рваные раны
И тлеет огонь, и чадит никотином в груди

Реки любви
Реки любви
Реки любви
Реки любви

Реки любви
Реки любви
Реки любви
Реки любви
stas # 24 августа 2013 в 09:53 0
очень бы хотелось бы аккорды к песням скандал и ее глаза, помогите)))
ilja # 25 августа 2013 в 03:03 0
А кто нибудь знает аккорды губной гармошки для "Мой рок-н-ролл"?
dmitro # 25 августа 2013 в 08:26 0
кто знает акорди на песню Серебро..?Напишите пожалуста..
andrej # 26 августа 2013 в 07:29 0
Скандал - Dm B F C
denis # 4 сентября 2013 в 19:53 0
Третий Рим подберите пожалуйста )
oksana # 10 сентября 2013 в 02:17 0
может есть у кого фортепианные партии к пиано вершнам?
dmitro # 14 сентября 2013 в 08:17 0
а в песне Зажигать фактура четире четверти?и скинте акорди на песню Скользкие улици...плиз..
denis # 18 сентября 2013 в 10:04 0
Cкользкие улицы

E C#m7
Воздух искрит и просто поверить
A H E
Лопнет как мыльный пузырь cамый страшный кошмар
E C#m7
Вспыхнет в груди но не согреет
A H E
Сердце оставит пустым янтарный пожар

E C#m7
Скользкие улицы иномарки целуются
A H E
Помятые крылья несчастной любви
E C#m7
Минуты отмечены случайными встречными
A H E
Но никто не ответить что ждет впереди

Плавится лёд на бархатном теле,
Тает, как лёгкий дымок, короткая ночь,
Время пройдёт и однажды развеет
Пёстрая лента дорог сомнения прочь.

Скользкие улицы, иномарки целуются,
Помятые крылья несчастной любви,
Минуты отмечены случайными встречными,
Но никто не ответит, что ждёт впереди.

Amaj7 G#m7 C#m7
На стрелках перекрестки
Amaj7 G#m7 C#m7
До горизонта плоски
Amaj7 G#m7 C#m7
город словно остров
Amaj7 H
на краю земли

Скользкие улицы, иномарки целуются,
Помятые крылья несчастной любви,
Минуты отмечены случайными встречными,
Но никто не ответит, что ждёт впереди.

Скользкие улицы, иномарки целуются,
Помятые крылья несчастной любви,
Минуты отмечены случайными встречными,
Но никто не ответит, что ждёт впереди.